Info :

   FAQ - Rechercher - Les Membres S'enregistrer   Connexion
Exploited

Utilisateurs parcourant actuellement ce forum : Aucun


 

Poster un nouveau sujet   Répondre au sujet > Retour au début du parloir > Partition
Voir le sujet précédent :: Voir le sujet suivant  
Auteur Message
 
 devnull
Elagueur
Elagueur



Inscrit le: 13 Déc 2006
Messages: 4
Localisation: Paris

 
MessagePosté le: Mar 12 Déc 2006, 11:22    Sujet du message: Exploited Répondre en citant

Morceau : Affected By Them

COUPLET

E||-------------------------------|-----------------------------||
B||-------------------------------|-----------------------------||
G||*------------------------------|----------------------------*||
D||*--6--------------------7---7--|--6--------------4---7---4--*||
A||---4--4-4-4-4-4-4-4-4-4-5---5--|--4--4-4-4-4-4-4-2---5---2---||
E||-------------------------------|-----------------------------||



REFRAIN

---------------------------------|---------------------------------||
---------------------------------|---------------------------------||
*--5-6-6-6--6-6-6-5-6-6-6--6-6-6-|--5-6-6-6--6-6-6-2----4----2----*||
*--3-4-4-4--4-4-4-3-4-4-4--4-4-4-|--3-4-4-4--4-4-4-0----2----0----*||
---------------------------------|---------------------------------||
---------------------------------|---------------------------------||
  
Revenir en haut
Voir le profil de l'utilisateur Envoyer un message privé
 
 devnull
Elagueur
Elagueur



Inscrit le: 13 Déc 2006
Messages: 4
Localisation: Paris

 
MessagePosté le: Mar 12 Déc 2006, 12:49    Sujet du message: Exploited Répondre en citant

Morceau : beat the bastard

intro
E--------------------------------------------------------
B--------------------------------------------------------
G-2-2-2-2-2-2-2-2-2-2-2-2-2-2-2-5-5-5-5-5-5-5-7-7-8-8-7-7
D-2-2-2-2-2-2-2-2-2-2-2-2-2-2-2-5-5-5-5-5-5-5-7-7-8-8-7-7
A-0-0-0-0-0-0-0-0-0-0-0-0-0-0-0-3-3-3-3-3-3-3-5-5-6-6-5-5
D--------------------------------------------------------

couplet
E----------------------------------------------------------
B----------------------------------------------------------
G-2--2-2-2-2-2-2-2-2-2-2-2-2-2-2-5-5-5-5-5-5-5-7-7-8-8-7-7-
D-2--2-2-2-2-2-2-2-2-2-2-2-2-2-2-5-5-5-5-5-5-5-7-7-8-8-7-7-
A-0--0-0-0-0-0-0-0-0-0-0-0-0-0-0-3-3-3-3-3-3-3-5-5-6-6-5-5-
D----------------------------------------------------------
PM..........................

refrain
E-----------------------------------------------------------
B-----------------------------------------------------------
G-----------------------------2--2-2-2-2-2--2--2-2-2-2-2----
D-1--1-1-1-1-1--0--0-0-0-0-0--2--2-2-2-2-2--2--2-2-2-2-2----
A-1--1-1-1-1-1--0--0-0-0-0-0--0--0-0-0-0-0--0--0-0-0-0-0----
D-1--1-1-1-1-1--0--0-0-0-0-0--------------------------------
  
Revenir en haut
Voir le profil de l'utilisateur Envoyer un message privé
 
 devnull
Elagueur
Elagueur



Inscrit le: 13 Déc 2006
Messages: 4
Localisation: Paris

 
MessagePosté le: Mar 12 Déc 2006, 12:51    Sujet du message: Exploited Répondre en citant

Morceau : Jesus is dead

intro:
E|--------------------||
B|--------------------||
G|--------------------||
D|-10/7---7--10/7---7-||
A|-10/7---7--10/7---7-||
E|--8/5---5---8/5---5-||

E|-------------------------------||
B|-------------------------------||
G|-------------------------------||
D|-7777777777-5-6-7777777777-5-6-||
A|-7777777777-5-6-7777777777-5-6-||
E|-5555555555-3-4-5555555555-3-4-||


refrain:
E|-------------------------------------------------------------------||
B|-------------------------------------------------------------------||
G|-------------------------------------------------------------------||
D|-7-8-10--5-555---7-8-10--5-555---7-8-10--5-555---7-8-10--5-555-----||
A|-7-8-10--5-555---7-8-10--5-555---7-8-10--5-555---7-8-10--5-555-----||
E|-5-6--8--3-333---5-6--8--3-333---5-6--8--3-333---5-6--8--3-333-----||

fin:
E|--------------------||
B|--------------------||
G|--------------------||
D|-10/7---7--10/7---7-||
A|-10/7---7--10/7---7-||
E|--8/5---5---8/5---5-||

E|-------------------------------||
B|-------------------------------||
G|-------------------------------||
D|-7777777777-5-6-7777777777-5-6-||
A|-7777777777-5-6-7777777777-5-6-||
E|-5555555555-3-4-5555555555-3-4-||
  
Revenir en haut
Voir le profil de l'utilisateur Envoyer un message privé
Montrer les messages depuis:   
Poster un nouveau sujet   Répondre au sujet    > Retour au début du parloir > Partition L'heure est au format GMT + 1 Heure
 
Page 1 sur 1
 
 


Sauter vers:  
Vous pouvez poster de nouveaux sujets dans ce forum
Vous ne pouvez pas répondre aux sujets dans ce forum
Vous ne pouvez pas éditer vos messages dans ce forum
Vous ne pouvez pas supprimer vos messages dans ce forum
Vous ne pouvez pas voter dans les sondages de ce forum


 CHRONIQUES

 GROUPES
Big Boys Punk-Rock (Etats-Unis)
FingerTips Rock'n Roll / Rockabilly (France)
The Bronx Rock'n Roll / Rockabilly (Etats-Unis)
Attentat Sonore Punk-Rock (France)
Amanda Woodward Emo / Screamo (France)
Negazione Punk-Hardcore (Italie)
Dr Know Punk-Hardcore (Etats-Unis)

 NEWSLETTER

 

 GROUPES