Info :

   FAQ - Rechercher - Les Membres S'enregistrer   Connexion
Bad Religion

Utilisateurs parcourant actuellement ce forum : Aucun


 

Poster un nouveau sujet   Répondre au sujet > Retour au début du parloir > Partition
Voir le sujet précédent :: Voir le sujet suivant  
Auteur Message
 
 Sebastien
Jardinier
Jardinier



Inscrit le: 12 Déc 2006
Messages: 51
Localisation: Tours

 
MessagePosté le: Jeu 29 Mar 2007, 13:27    Sujet du message: Bad Religion Répondre en citant

Morceau : Do what you want

E----------------------------------
B----------------------------------
G-5-5-5-5-5-5-5-5-4-4-4-4-4-4-4-4
D-5-5-5-5-5-5-5-5-4-4-4-4-4-4-4-4
A-3-3-3-3-3-3-3-3-2-2-2-2-2-2-2-2
E-----------------------------------

The main riff

E-------------------------------
B-------------------------------
G-9----------7-7-9----------7-7
D-9-10-10-5-7-7-9-10-10-5-7-7
A-7-10-10-5-5-5-7-10-10-5-5-5
E----8--8--3--------8--8-3-----

The Verse riff is the same but different rythem-

E----------------------------------------------------
B----------------------------------------------------
G-9-9-9-9-9-9-9-9-----------------------------------
D-9-9-9-9-9-9-9-9-10-10-10-10-10-10-10-10-5-5-5-5
A-7-7-7-7-7-7-7-7-10-10-10-10-10-10-10-10-5-5-5-5
E-------------------8--8--8---8--8--8--8--8-3-3-3-3

E--------------------------
B--------------------------
G----------7-7-7-7-7-7-7-7
D-5-5-5-5-7-7-7-7-7-7-7-7
A-5-5-5-5-5-5-5-5-5-5-5-5
E-3-3-3-3-----------------

Chorus

E---------------------
B---------------------
G-5-7-9-9-9-9-9-9-9-9
D-5-7-9-9-9-9-9-9-9-9
A-3-5-7-7-7-7-7-7-7-7
E---------------------
 

.......................................................
 
Revenir en haut
Voir le profil de l'utilisateur Envoyer un message privé
 
 Sebastien
Jardinier
Jardinier



Inscrit le: 12 Déc 2006
Messages: 51
Localisation: Tours

 
MessagePosté le: Jeu 29 Mar 2007, 13:28    Sujet du message: Bad Religion Répondre en citant

Morceau : Cant stop it tab

Intro
e|-----------------------|---------|------------|
B|-----------------------|---------|------------|
G|-----------------------|---------|------------|
D|--4-4-4--5-5-5---------|--8-8-8--|--10-10-10--|
A|--2-2-2--3-3-3--7-7-7--|--6-6-6--|---8--8--8--|
E|----------------5-5-5--|---------|------------|

Verse
e|----------------------------------------|
B|----------------------------------------|
G|----------------------------------------|
D|--4-4-4-4-4-4-4-4--5-5-5-5-5-5-5-5/7\5--|
A|--2-2-2-2-2-2-2-2--3-3-3-3-3-3-3-3/5\3--|
E|----------------------------------------|

e|--------------------------------------------|
B|--------------------------------------------|
G|--------------------------------------------|
D|--4-4-4-4-4-4-4-4-----------------------/7--|
A|--2-2-2-2-2-2-2-2--5-5-5-5-5-5-5-5/7\5/7/5--|
E|-------------------3-3-3-3-3-3-3-3/5\3/5----|

e|----------------------------------------------------------------------|
B|----------------------------------------------------------------------|
G|----------------------------------------------------------------------|
D|--4-4-4-4-4-4-4-4-----------------------------------------------------|
A|--2-2-2-2-2-2-2-2--7-7-7-7-7-7-7-7--5-5-5-5-5-5-5-5--4-4-4-4-4-4-4-4--|
E|-------------------5-5-5-5-5-5-5-5--3-3-3-3-3-3-3-3--2-2-2-2-2-2-2-2--|

Chorus
e|----------------------------------------------------------------------|
B|----------------------------------------------------------------------|
G|----------------------------------------------------------------------|
D|--4-4-4-4-4-4-4-4-----------------------------------------------------|
A|--2-2-2-2-2-2-2-2--7-7-7-7-7-7-7-7--5-5-5-5-5-5-5-5--4-4-4-4-4-4-4-4--|
E|-------------------5-5-5-5-5-5-5-5--3-3-3-3-3-3-3-3--2-2-2-2-2-2-2-2--|

e|-----------------------------------------------------|
B|-----------------------------------------------------|
G|-----------------------------------------------------|
D|-----------------------------------------------------|
A|--5-5-5-5-5-5-5-5--7-7-7-7-7-7-7-7--9-9-9-9-9-9-9-9--|
E|--3-3-3-3-3-3-3-3--5-5-5-5-5-5-5-5--7-7-7-7-7-7-7-7--|

Outro
e|-----------------------|---------|------------|------|
B|-----------------------|---------|------------|------|
G|-----------------------|---------|------------|------|
D|--4-4-4--5-5-5---------|--8-8-8--|--10-10-10--|------|
A|--2-2-2--3-3-3--7-7-7--|--6-6-6--|---8--8--8--|--9\--|
E|----------------5-5-5--|---------|------------|--7\--|
 

.......................................................
 
Revenir en haut
Voir le profil de l'utilisateur Envoyer un message privé
 
 Sebastien
Jardinier
Jardinier



Inscrit le: 12 Déc 2006
Messages: 51
Localisation: Tours

 
MessagePosté le: Jeu 29 Mar 2007, 13:29    Sujet du message: Bad Religion Répondre en citant

Morceau : Modern Man

Intro
e|-------------------------16p15p13--16p15p13--16p15p13--15h16p15--|
B|--------------13-13--14------------------------------------------|
G|--10--13--10-----------------------------------------------------|
D|-----------------------------------------------------------------|
A|-----------------------------------------------------------------|
E|-----------------------------------------------------------------|

e|--------------------------------------------------------------------------|
B|-------------------15--13---------------13---------------13---------------|
G|--15--13-13-13h15----------15p13h15p13------15p13h15p13------15p13p12h13--|
D|--------------------------------------------------------------------------|
A|--------------------------------------------------------------------------|
E|--------------------------------------------------------------------------|

Verse
e|------------------------------------------------------------------------------|
B|------------------------------------------------------------------------------|
G|------------------------------------------------------------------------------|
D|--10-10-10-10-10-10---------------------10-10-10-10-10-10---------------------|
A|---8--8--8--8--8--8--11-11-11-11-11-11---8--8--8--8--8--8--11-11-11-11-11-11--|
E|----------------------9--9--9--9--9--9----------------------9--9--9--9--9--9--|

e|-----------------------------------------------------------------------------|
B|-----------------------------------------------------------------------------|
G|-----------------------------------------------------------------------------|
D|--10-10-10-10---------------6-6-6-6-6-6--8-8--10-10-10-10-10-10-10-10-10-10--|
A|---8--8--8--8--6-6-6-6-6-6--4-4-4-4-4-4--6-6---8--8--8--8--8--8--8--8--8--8--|
E|---------------4-4-4-4-4-4---------------------------------------------------|

Chorus
e|------------------------------------------------|
B|------------------------------------------------|
G|------------------------------------------------|
D|--------------------8-8-8-8--10-10-10-10-10-10--|
A|--3-3-3-3--6-6-6-6--6-6-6-6---8--8--8--8--8--8--|
E|--1-1-1-1--4-4-4-4------------------------------|

e|------------------------------------------------------|
B|------------------------------------------------------|
G|------------------------------------------------------|
D|--------------------6-6-6-6-6-6-6-6--8-8-8-8-8-8-8-8--|
A|--3-3-3-3--6-6-6-6--4-4-4-4-4-4-4-4--6-6-6-6-6-6-6-6--|
E|--1-1-1-1--4-4-4-4------------------------------------|

Solo
e|-------------------------------------------------------------------|
B|--------------13-13--14--------------------------------------------|
G|--10--13--10-------------13h16--13h16--13h16--13h16--13h16--13h16--|
D|-------------------------------------------------------------------|
A|-------------------------------------------------------------------|
E|-------------------------------------------------------------------|

e|----------------13h16--16p15p13--16p15p13--16p15p13--16p15p13--16p15p13--|
B|---------13h16-----------------------------------------------------------|
G|--13h16------------------------------------------------------------------|
D|-------------------------------------------------------------------------|
A|-------------------------------------------------------------------------|
E|-------------------------------------------------------------------------|

e|--13-13-13--15-15-15--16-16-16--18-18-18--20~-20~-20b-20~~-20\\--|
B|-----------------------------------------------------------------|
G|-----------------------------------------------------------------|
D|-----------------------------------------------------------------|
A|-----------------------------------------------------------------|
E|-----------------------------------------------------------------|

Outro
e|------------------------------------------------|
B|------------------------------------------------|
G|------------------------------------------------|
D|--------------------8-8-8-8--10-10-10-10-10-10--|
A|--3-3-3-3--6-6-6-6--6-6-6-6---8--8--8--8--8--8--|
E|--1-1-1-1--4-4-4-4------------------------------|

e|------------------------------------------------------|
B|------------------------------------------------------|
G|------------------------------------------------------|
D|--------------------6-6-6-6-6-6-6-6--8-8-8-8-8-8-8-8--|
A|--3-3-3-3--6-6-6-6--4-4-4-4-4-4-4-4--6-6-6-6-6-6-6-6--|
E|--1-1-1-1--4-4-4-4------------------------------------|

e|----------------------------------------------------------------------|
B|----------------------------------------------------------------------|
G|----------------------------------------------------------------------|
D|--6-6-6-6-6-6-6-6--8-8-8-8-8-8-8-8--6-6-6-6-6-6-6-6--8-8-8-8-8-8-8-8--|
A|--4-4-4-4-4-4-4-4--6-6-6-6-6-6-6-6--4-4-4-4-4-4-4-4--6-6-6-6-6-6-6-6--|
E|----------------------------------------------------------------------|

e|------------------------------------------------------------------------------|
B|------------------------------------------------------------------------------|
G|------------------------------------------------------------------------------|
D|--10-10-10-10-10-10---------------------10-10-10-10-10-10---------------------|
A|---8--8--8--8--8--8--11-11-11-11-11-11---8--8--8--8--8--8--11-11-11-11-11-11--|
E|----------------------9--9--9--9--9--9----------------------9--9--9--9--9--9--|

e|----------------------------------------------------------------------------|
B|----------------------------------------------------------------------------|
G|----------------------------------------------------------------------------|
D|--10-10-10-10-10-10-------------------6-6-6-6-6-6-6-6--8-8-8-8-8-8-8-8--10--|
A|---8--8--8--8--8--8--6-6-6-6-6-6-6-6--4-4-4-4-4-4-4-4--6-6-6-6-6-6-6-6---8--|
E|---------------------4-4-4-4-4-4-4-4----------------------------------------|
 

.......................................................
 
Revenir en haut
Voir le profil de l'utilisateur Envoyer un message privé
Montrer les messages depuis:   
Poster un nouveau sujet   Répondre au sujet    > Retour au début du parloir > Partition L'heure est au format GMT + 1 Heure
 
Page 1 sur 1
 
 


Sauter vers:  
Vous pouvez poster de nouveaux sujets dans ce forum
Vous ne pouvez pas répondre aux sujets dans ce forum
Vous ne pouvez pas éditer vos messages dans ce forum
Vous ne pouvez pas supprimer vos messages dans ce forum
Vous ne pouvez pas voter dans les sondages de ce forum


 CHRONIQUES

 GROUPES
Burning Heads Hardcore (France)
Doppler Noise (France)
Furious Belly Street Punk / Oï (France)
Murphy's Law Punk-Rock (Etats-Unis)
Get Lost Hardcore (France)
Agression Punk-Hardcore (Etats-Unis)
Born Against Hardcore (Etats-Unis)

 NEWSLETTER

 

 GROUPES